Some Finer Day

(Cousin / Price / Regan / Willson-Piper)

These tabs have been copied from www.goony.nl

Transcription by Jacques Côté.

Tuning : E A D G B E 	Time Signature 4/4

Intro:
  |       |       |       |        |       |       |       |
|-0-----------0------------------|-0-----------0---------------|
|-1-----------1------------------|-3-----------3---------------|
|-2-----------2------------------|-4-----------4---------------|
|-2-----------2------------------|-4-----------4---------------| 2x
|-0-----------0------------------|-0-----------0---------------|
|--------------------------------|-----------------------------|


Verses 
  |       |       |       |        |       |       |       |
|-0------------------------------|-0-------------------------------|
|-1------------------------------|-3-------------------------------|
|-2------------------------------|-4-------------------------------| 4x
|-2------------------------------|-4-------------------------------|
|-0------------------------------|-0-------------------------------|
|--------------------------------|---------------------------------|

  |       |       |       |        |       |       |       |
|-2------------------------------|-5-------------------------------|
|-3------------------------------|-6-------------------------------|
|-2------------------------------|-5-------------------------------| 2x
|-0------------------------------|-0-------------------------------|
|--------------------------------|---------------------------------|
|--------------------------------|---------------------------------|

  |       |       |       |        |       |       |       |
|-0------------------------------|-0-------------------------------|
|-1------------------------------|-3-------------------------------|
|-2------------------------------|-4-------------------------------| 2x
|-2------------------------------|-4-------------------------------|
|-0------------------------------|-0-------------------------------|
|--------------------------------|---------------------------------|


Chorus
  |       |       |       |        |       |       |       |
|-2-2-2--------------------------|-2-2-2---------------------------|
|-3-3-3--------------------------|-3-3-3---------------------------|
|-2-2-2--------------------------|-2-2-2---------------------------| 4x
|-0-0-0--------------------------|-0-0-0---------------------------|
|--------------------------------|---------------------------------|
|--------------------------------|---------------------------------|


Bridge
  |       |       |       |        |       |       |       |
|-0------------------------------|-3-------------------------------|
|-1------------------------------|-0-------------------------------|
|-2------------------------------|-0-------------------------------|
|-2------------------------------|-0-------------------------------|
|-0------------------------------|-2-------------------------------|
|--------------------------------|-3-------------------------------|

  |       |       |       |        |       |       |       |
|-0------------------------------|---------------------------------|
|-0------------------------------|---------------------------------|
|-1------------------------------|---------------------------------|
|-2------------------------------|---------------------------------| 4x
|-2------------------------------|---------------------------------|
|-0------------------------------|---------------------------------|


Verse:
Ride on the storm I made
I glide on the ashes of the sky
My blue raincoat makes me say "No today"
Hey, when does weather ever change?

Chorus:
Some finer day (some finer day)
Say things go my way
Some finer day (some finer day)
I'll play your sunshiny girl

Verse:
Ride the mercury with me
See how unpredictable it feels
Red-bus shelter where we fell to the ground
Found out that weather never changed

Chorus:
Some finer day (some finer day)
Say things go my way
Some finer day (some finer day)
I'll be your sunshiny girl

Bridge:
And brighten up my world
With sunflowers and book I have burned
And see what you want me to see
I'll be what you want me to be

Chorus:
Some finer day (some finer day)
Say things go my way
Some finer day (some finer day)

Outshine the Sun

(Cousin / Price / Regan / Willson-Piper)

These tabs have been copied from www.goony.nl

Transcription by Jacques Côté.

Tuning : E A D G B E 	Time Signature 4/4

Intro : (Strumming)
  |       |       |       |        |       |       |       |
|-0------------------------------|-0-----------------------------|
|-0------------------------------|-0-----------------------------|
|-0------------------------------|-0-----------------------------|
|-2------------------------------|-2-----------------------------|
|-2------------------------------|-2-----------------------------|
|-0------------------------------|-0-----------------------------|
  |       |       |       |        |       |       |       |
|-0------------------------------|-0---------------0-------------|
|-0------------------------------|-0---------------3-------------|
|-0------------------------------|-0---------------2-------------|
|-2------------------------------|-2---------------0-------------|
|-3------------------------------|-3-----------------------------|
|--------------------------------|-------------------------------|


Main Riff :
  |       |       |       |       
|--------------------------------|
|--------------0-----------------|
|-4^5r4---2--------0---0---0---0-|
|-----------------4---4---2---2--|
|--------------------------------|
|--------------------------------|

(Mr. Scott Mikusko's suggestion of the main riff.)
|-----------------0--------------|
|---------------0---0-------0----|
|-4/5--2--2---0-------0---0---0--|
|-----------------------4--------|
|--------------------------------|
|--------------------------------|



(I'm loosing the feeling...)
  |       |       |       |        |       |       |       |
|-2------------------------------|-1----------------------------|
|-3------------------------------|-3----------------------------|
|-2------------------------------|-2----------------------------|2x
|-0------------------------------|-0----------------------------|
|--------------------------------|------------------------------|
|--------------------------------|------------------------------|

(He shines so bright...)    
  |       |       |       |        |       |       |       |
|--------------------------------|--------------------------------|
|--------------------------------|--------------------------------|
|--------------------------------|--------------------------------|
|-2------------------------------|-4------------------------------|
|-2------------------------------|-4------------------------------|
|-0------------------------------|-2------------------------------|

  |       |       |       |        |       |       |       |
|--------------------------------|--------------------------------|
|--------------------------------|--------------------------------|
|--------------------------------|--------------------------------|
|-5------------------------------|-7------------------------------|4x
|-5------------------------------|-7------------------------------|
|-3------------------------------|-5------------------------------|
 
  |       |       |       |        
|-0---------------------------|Outshine the sun...
|-0---------------------------|
|-0---------------------------|
|-2---------------------------|
|-2---------------------------|
|-0---------------------------|


Marty's great solo is played over these chords :
  |       |       |       |        |       |       |       |
|--------------------------------|-------------------------------|
|--------------------------------|-------------------------------|
|-9------------------------------|-9-----------------------------|
|-9------------------------------|-9-----------------------------|
|-7------------------------------|-7-----------------------------|
|--------------------------------|-------------------------------|

  |       |       |       |        |       |       |       |
|--------------------------------|-------------------------------|
|--------------------------------|-------------------------------|
|-5------------------------------|-5-----------------------------|
|-5------------------------------|-5-----------------------------|
|-3------------------------------|-3-----------------------------|
|--------------------------------|-------------------------------|