Farewell Mr. Sorrow

(Cousin / Price / Regan / Willson-Piper)

These tabs have been copied from www.goony.nl 
(an alternative transcription is available there as well)

Transcription by Doron Sayar.

Part 1: Intro solo 

D2                 A/C#             C2            ^  G/B 
E|--5-23230-2-2323|0-2-----0-------|--5-23230-2-0-2-|----------------| 
B|3---------------|----3-----3---3-|----------------|----------------| 
G|----------------|------2-----2---|----------------|----------------| 
D|----------------|----------------|----------------|----------------| 
A|----------------|----------------|----------------|----------------| 
E|----------------|----------------|----------------|----------------| 

A/C# means that you play an A chord with the bass is C#. 
The ^ sign means stretching the string up (listen to the song.) 
Also the playing of the 2323 parts is faster and is actually off beat. 
The backing is the same as in the verse. 

Part 2: Verse 

Six o'clock.. closing shops.. ..rainbows on..     pavement of a 
D2                 A/C#             C2               G/B 
E|--0-----0-------|--0-----0-------|--0-----0-------|--0-----0-------| 
B|----3-----3---3-|----3-----3---3-|----3-----3---3-|----3-----3---3-| 
G|------2-----2---|------2-----2---|------2-----2---|------0-----0---| 
D|0---------------|----------------|----------------|----------------| 
A|----------------|4---------------|3---------------|2---------------| 
E|----------------|----------------|----------------|----------------| 

Here we manage to play the second guitar as well ! 

Sleepy           town 
D2                 A/C#             C2 
G/B           D2 
E|--0-----0-------|--0-----0-------|----5-------0---|3---2---0-0---0-| 
B|----3-----3---3-|----3-----3---3-|------3---3---3-|--0---0---3---3-| 
G|------2-----2---|------2-----2---|--2-----2-------|----------0---2-| 
D|0---------------|----------------|----------------|--------------0-| 
A|----------------|4---------------|3---------------|2---------2-----| 
E|----------------|----------------|----------------|----------------| 

Then the first half of the verse is repeated twice with the exception 
that the last chord leading to the next part is an F and not G/B. 

Part 3: Intro to chorus 

     Do you   remember walking    out the day it   rained forever 
  C                G                Am               F 
E|0---------------|3---------------|0---------------|1---------------| 
B|1---------------|3---------------|1---------------|1---------------| 
G|0---------------|0---------------|2---------------|2---------------| 
D|2---------------|0---------------|2---------------|3---------------| 
A|3---------------|2---------------|0---------------|3---------------| 
E|----------------|3---------------|----------------|1---------------| 

    You were      wondering if     I had dreams of  wedding rings, well... 
  C                G/D              Am/E             F 
E|0---------------|3---------------|0---------------|1---------------| 
B|1---------------|3---------------|1---------------|1---------------| 
G|0---------------|0---------------|2---------------|2---------------| 
D|2---------------|0---------------|2---------------|3---------------| 
A|3---------------|x---------------|x---------------|x---------------| 
E|----------------|x---------------|x---------------|x---------------| 

In the second half of this section, although the chords remain the same, 
the bass goes C,D,E,F - to emphesize that we play the last 4 strings of 
the chords only - it makes the difference ! 

Part 4: Chorus - It's the same as the intro. You can play it like this: 

  D2               A/C#             C2               G/B 
E|0---------------|0---------------|0---------------|0---------------| 
B|3---------------|3---------------|3---------------|3---------------| 
G|2---------------|2---------------|2---------------|0---------------| 
D|0---------------|0---------------|0---------------|0---------------| 
A|----------------|4---------------|3---------------|2---------------| 
E|----------------|----------------|----------------|----------------| 

Part 5: The REAl reason why we gathered here... THE GUITAR SOLO! 
Well, sit tight, and don't try this at home! (no, try!) 
I personally manage somehow to survive the first part of the solo, 
but the second one - I can only write it! (even working it out was not 
a bed of roses!) 

O.K here we go: 

      Am      G        F#m     F        Em      C        Em      A# 
E----|----------------|----------------|0-------0-------|--------1-------| 
B----|----------------|----------------|0-------1-------|--------3-------| 
G2420|2---24200---2420|----2420----2420|0-------0-------|--------3---2420| 
D----|----------------|4-------3-------|2-------2-------|23202-3-3-------| 
A----|----------------|----------------|2-------3-------|--------1-------| 
E----|----------------|----------------|0-------x-------|----------------| 

  Am       G       F#m     F        Em      C        Em      A# 
E|----------------|------------010-|0-------0-------|010-0-1---------| 
B|----------------|---------------3|--------1-------|---3----3-------| 
G|2---45404---5750|5---79707-------|--------0-------|----------------| 
D|----------------|----------------|--------2-------|----------------| 
A|----------------|----------------|--------3-------|----------------| 
E|----------------|----------------|----------------|----------------| 

           So       this is how judas            kisses... 
  Am      Bm       C       D2       Em      C       Em      A#       F 
E|0-------2-------|0-------0-------|0-------0-------|0-------1-------|1--- 
B|1-------3-------|1-------3-------|0-------1-------|0-------3-------|1-- 
G|2-------4-------|0-------2-------|0-------0-------|0-------3-------|2--- 
D|2-------4-------|2-------0-------|2-------2-------|2-------3-------|3--- 
A|0-------2-------|3-------x-------|2-------3-------|2-------1-------|3--- 
E|x-------x-------|x-------x-------|0-------x-------|0-------x-------|1--- 

 
Now let's stretch the last two bars for the REALLY difficult part of 
the guitar solo: 

    Em        C            Em           A#          F 
E13|1-0-------------------|------------------------|- 
B--|----3-5-131-0---0---0-|------------------------|- 
G--|--------------2---0---|--0---------------------|- 
D--|----------------------|3---2-3-0-2---0---------|- 
A--|----------------------|------------3---2-3-0-2-|- 
E--|----------------------|------------------------|1 

VERY DIFFICULT!!!! 
Playing the chords only might be good enough! 
  
Song Structures

D2                   A/C# 
Six o'clock, all the closing shops 
           C             G/B 
And the rainbows on the pavements 
       D2           A/C#     C      G/B 
Of a sleepy       town. 

D2                  A/C# 
October leaves were wept from the trees 
    C                           G/B 
In tears of grief and strange relief 
    D2    A/C#    C      F 
And sympathy.... all for me. 

C          G             Am 
Do you remember walking out 
             F 
The day it rained forever 
C            G/D 
And you were wondering 
Am/E                 F 
If I held dreams of wedding rings 

       D2  A/C#    C       G/B 
Well, farewell Mr. Sorrow 
D2   A/C#    C 
Farewell Mr. Sorrow 
   G/B 
Tomorrow is my own. 

(...Jumping to middle section) 

Am G F#m F Em C Em Bb   x2 

Am   Bm            C     D2 
  So this is how a Judas kisses 

Em    C    Em  Bb 

              F 
Well, this is my kiss. 

Touched By Jesus

(Cousin / Price / Regan / Willson-Piper)

These tabs have been copied from www.goony.nl

Transcribed by Wayne Ellis

The guitars are tuned as follows: E A D G B E  (from low to high)

Intro (Guitar 1)
----------------

|--Bass-Drums-and--|-'Noise'----------|------------------|------------------|

|------------------|------------------|------------------|------------------|

|------------------|------------------|------------------|------------------|

  V   V   V V	     V   V   V  V  .... etc
E-[CD-Time-00:38]--|------------------|------------------|------------------|
B------------------|------------5-----|------------------|------------------|
G-7---6---4--------|-7---6---4--------|-7---6---4--------|-4----------------|
D-----------6------|------------------|------------6-----|----6-------------|
A------------------|------------------|------------------|------------------|
E------------------|------------------|------------------|------------------|

Verse 1 (Guitar 1)
------------------
  V   V   V V  	     V   V   V  V  .... etc (Throughout)
E------------------|------------------|------------------|------------------|
B------------------|------------5-----|------------------|------------------|
G-7---6---4--------|-7---6---4--------|-7---6---4--------|-4----------------|
D-----------6------|------------------|------------6-----|----6-------------|
A------------------|------------------|------------------|------------------|
E------------------|------------------|------------------|------------------|

E------------------|------------------|------------------|------------------|
B------------------|------------------|------------------|------------------|
G-7---6---4--------|------------------|-7---6---4--------|-4----------------|
D-----------6------|------------------|------------6-----|----6-------------|
A------------------|------------------|------------------|------------------|
E------------------|------------------|------------------|------------------|
 Have you ever	     	    About your  Behaviour
 wondered much at all

E------------------|------------------|------------------|------------------|
B------------------|------------------|------------------|------------------|
G-7---6---4--------|------------------|-7---6---4--------|-4----------------|
D-----------6------|------------------|------------6-----|----6-------------|
A------------------|------------------|------------------|------------------|
E------------------|------------------|------------------|------------------|
 Or worried about    	  Grey against  The scenery		      Black
 the role you play

E------------------|------------------|------------------|------------------|
B------------------|------------------|------------------|------------------|
G-7---6---4--------|------------------|-7---6---4--------|-4----------------|
D-----------6------|------------------|------------6-----|----6-------------|
A------------------|------------------|------------------|------------------|
E------------------|------------------|------------------|------------------|
 Cloud calls by	Black Cloud blue sky	Bird your words	   Dark to fly
				Black		    too

E------------------|------------------|------------------|------------------|
B------------------|------------------|------------------|------------------|
G-7---6---4--------|------------------|-7---6---4--------|-4----------------|
D-----------6------|------------------|------------6-----|----6-------------|
A------------------|------------------|------------------|------------------|
E------------------|------------------|------------------|------------------|
 Reason starts to    I want to take 	A gun to you
 fade and fall away

Chorus 1 (Guitar 1, Guitar 2)
-----------------------------

Guitar 1
  E		     A			Dsus2		   A
E-----0-----0------|-----0------0-----|-----0------0-----|---------------0--|
B-------------0----|--------------2---|--------------3---|-----2--2---3-2---|
G--------------1---|---2------2----2--|---2------2----2--|------------------|
D------------------|------------------|-0------0-------0-|---2--------------|
A---2------2-------|-0------0---------|------------------|-0----------------|
E-0------0---------|------------------|------------------|------------------|
Guitar 2	   |		      |			 |		    |
  E5		   | A5		      |	D5		 | A5	      X  X  |
E------------------|------------------|------------------|------------D--U--|
B------------------|------------------|------------------|------------------|
G------------------|------------------|------------------|------------------|
D-9----------------|------------------|-7----------------|------------------|
A-7----------------|-7----------------|-5----------------|-7----------7--7--|
E------------------|-5----------------|------------------|-5----------5--5--|
 Ohh	      Rain   Another day While  Move as angels	   Gather up your
				   we			   blues and clear
							   the way

E-----0-----0------|-----0------0-----|-----0------0-----|------------------|
B-------------0----|--------------2---|--------------3---|-----2--2---3-2-0-|
G--------------1---|---2------2----2--|---2------2----2--|------------------|
D------------------|------------------|-0------0-------0-|---2--------------|
A---2------2-------|-0------0---------|------------------|-0----------------|
E-0------0---------|------------------|------------------|------------------|
		   |		      |			 |		    |
E------------------|------------------|------------------|------------------|
B------------------|------------------|------------------|------------------|
G------------------|------------------|------------------|------------------|
D-9----------------|------------------|-7----------------|------------------|
A-7----------------|-7----------------|-5----------------|-7----------------|
E------------------|-5----------------|------------------|-5----------------|
 Ohh	      Hate   The games you play Touched by Jesus   Gather up your 
			   while we're			   blues and get out
							   of the way

Verse 2 (Guitar 1)
------------------

(The Guitar part for Verse 2 is exactly the same as Verse 1)

|------------------|------------------|------------------|------------------|


|------------------|------------------|------------------|------------------|
  Sand invades your  Desert Its nothing To die about
  shoes like a

|------------------|------------------|------------------|------------------|
  And our heels are  The lizard Take    And shake it out
  enough to crush	     'em off

|------------------|------------------|------------------|------------------|
  The sting	in   The tail		Is destined	   To fail

|------------------|------------------|------------------|------------------|
  Our skin	     Takes in 		No poison

Chorus 2 (Guitar 1, Guitar 2)
-----------------------------

(The Guitar parts for Chorus 2 are exactly the same as Chorus 1)

|-E----------------|-A----------------|-Dsus2------------|-A----------------|

 Ooh	      Rain   Another day While  Move as angels	   Gather up your
				   we			   blues and clear
							   the way

|-E----------------|-A----------------|-Dsus2------------|-A----------------|

 Ooh	      Hate   The games you play Touched by Jesus   Gather up your 
			   while we're			   blues and get out
							   of the way

Stratospheric Preaching (Guitar 1, Guitar 2)
--------------------------------------------
Guitar 1
  E (rake)				E (no 5th)	   A5
E-0----------------|------------------|-0[0]-------------|-0-[0-]-----------|
B-0----------------|------------------|-9[9]-------------|-10[10]-----------|
G-1----------------|------------------|------------------|------------------|
D-2----------------|------------------|------------------|------------------|
A-2----------------|------------------|------------------|------------------|
E------------------|------------------|------------------|------------------|

Guitar 1
E-0[0]-------------|-0-[0-]-----------|-0[0]-------------|-0-[0-]-----------|
B-9[9]-------------|-10[10]-----------|-9[9]-------------|-10[10]-----------|
G------------------|------------------|------------------|------------------|
D------------------|------------------|------------------|------------------|
A------------------|------------------|------------------|------------------|
E------------------|------------------|------------------|------------------|
  So the next time   Across my little	And we know we're  Grace. And we know
  you're out	     my little piece    in a state of	   we're in a state of
  stumbling	     of sky

Guitar 1
  E		     A			Dsus2		   A
E-----0-----0------|-----0------0-----|-----0------0-----|------------------|
B-------------0----|--------------2---|--------------3---|-----2--2---3-2-0-|
G--------------1---|---2------2----2--|---2------2----2--|------------------|
D---------------2--|----------------2-|-0------0-------0-|---2--------------|
A---2------2-------|-0------0---------|------------------|-0----------------|
E-0------0---------|------------------|------------------|------------------|
Guitar 2	   |		      |			 |		    |
  E5		   | A5		      |	D5		 | A5	      X  X  |
E------------------|------------------|------------------|------------D--U--|
B------------------|------------------|------------------|------------------|
G------------------|------------------|------------------|------------------|
D-9----------------|------------------|-7----------------|------------------|
A-7----------------|-7----------------|-5----------------|-7----------7--7--|
E------------------|-5----------------|------------------|-5----------5--5--|
  Mind. And we know  Of the state of    And all we really  Is free
  we're part	     art		want to be

E-----0-----0------|-----0------0-----|-----0------0-----|---------------0--|
B-------------0----|--------------2---|--------------3---|-----2--2---3-2---|
G--------------1---|---2------2----2--|---2------2----2--|------------------|
D---------------2--|------------------|-0------0-------0-|---2--------------|
A---2------2-------|-0------0---------|------------------|-0----------------|
E-0------0---------|------------------|------------------|------------------|
		   |		      |			 |	      X  X  |
E------------------|------------------|------------------|------------D--U--|
B------------------|------------------|------------------|------------------|
G------------------|------------------|------------------|------------------|
D-9----------------|------------------|-7----------------|------------------|
A-7----------------|-7----------------|-5----------------|-7----------7--7--|
E------------------|-5----------------|------------------|-5----------5--5--|
  You've got to	     You've got to	You've got to	   And she says
  recieve	     recieve what the	believe what the
		     spirit says	spirit says

Chorus 3 (Guitar 1)
-------------------

  D	       D U  etc ...
E-0------------0-0-|-0----------0--0--|-0----------0--0--|-0----------------|
B-9------------9-9-|-10---------10-10-|-15---------12-10-|-10---------12-10-|
G------------------|------------------|------------------|------------------|
D------------------|------------------|------------------|------------------|
A------------------|------------------|------------------|------------------|
E------------------|------------------|------------------|------------------|
  Ohh	     Rain    Another day  As we Move as angels	   Gather up your 
							   views and clear
							   the way

E-0------------0-0-|-0----------0--0--|-0----------0--0--|-0----------0--0--|
B-9------------9-9-|-10---------10-10-|-15---------12-10-|-10---------12-10-|
G------------------|------------------|------------------|------------------|
D------------------|------------------|------------------|------------------|
A------------------|------------------|------------------|------------------|
E------------------|------------------|------------------|------------------|
 Ooh	      Hate   The games you play Touched by Jesus   Gather up your 
			   while we're			   blues and get out
							   of the way

Guitar Solo 1 (Guitar 1, Guitar 2, Guitar 3)
---------------------------------------------
Guitar 1
 E		     A			E		   A
E------0-----------|------0-----------|------0-----------|------0-----------|
B------------------|------------------|------------------|------------------|
G------------------|---2--------------|------------------|---2--------------|
D---2--------------|------------------|---2--------------|------------------|
A------------------|-0----------------|------------------|-0----------------|
E-0----------------|------------------|-0----------------|------------------|
Guitar 3	   | 		      |		  	 |		    |
E------------------|------------------|--------12--0-----|----------12------|
B------------------|------------------|------------9--10-|--------------10--|
G------------------|------------------|------------------|------------------|
D------------------|------------------|------------------|------------------|
A------------------|------------------|------------------|------------------|
E------------------|------------------|------------------|------------------|
			Ohh ......

E------0-----------|------0-----0-----|------0-----0-----|------0-----0-----|
B------------------|----------0---0---|----------0---0---|----------0---0---|
G------------------|---2----2-------2-|--------2-------2-|---2----2------2--|
D---2--------------|------------------|---2--------------|------------------|
A------------------|-0----------------|------------------|-0----------------|
E-0----------------|------------------|-0----------------|------------------|
		   |		      |			 |		    |
E-------------12---|----12---------12-|-------------12---|----12--------12--|
B9/10\9-----9----9-|9/10---------10---|10\9-------9----9-|9/10------9/10--10|
G------9---9-------|------------------|----9-------------|------------------|
D------------------|------------------|------------------|------------------|
A------------------|------------------|------------------|------------------|
E------------------|------------------|------------------|------------------|

E------0-----0-----|------0-----0-----|------0-----0-----|------0-----0-----|
B----------0---0---|----------0---0---|----------0---0---|----------0---0---|
G--------2-------2-|---2----2-------2-|--------2-------2-|---2----2------2--|
D---2--------------|------------------|---2--------------|------------------|
A------------------|-0----------------|------------------|-0----------------|
E-0----------------|------------------|-0----------------|------------------|
		   |		      |			 |		    |
E-------------12---|----12-------12---|--------12---12---|-------12-----12--|
B10\9-------9----9-|9/10-----1010--10-|10\9-9----99----9-|9/10-----9/10---10|
G----9-------------|------------------|------------------|------------------|
D------------------|------------------|------------------|------------------|
A------------------|------------------|------------------|------------------|
E------------------|------------------|------------------|------------------|
	Ohh ......
 Guitar 1
E------0-----0-----|------0-----0-----|------0-----0-----|------------------|
B----------0---0---|----------0---0---|----------0---0---|------------------|
G--------2-------2-|---2----2-------2-|--------2---------|------------------|
D---2--------------|------------------|---2--------------|------------------|
A------------------|-0----------------|------------------|------------------|
E-0----------------|------------------|-0----------------|------------------|
 Guitar 2	   |		      |			 |rake		    |
E------------------|------------------|------------------|------------------|
B------------------|------------------|------------------|------------------|
G---9--------------|------------------|------------------|-9----------------|
D-9-9--------------|------------------|-9-9--------------|-9----------------|
A-7----------------|------------------|-7-7--------------|-7----------------|
E-0----------------|------------------|-0----------------|-0----------------|
 Guitar 3	   |		      |			 |		    |
E--------12---12---|-------12---------|-------0----------|--9-------9-------|
B10\9-9-----9----9-|9/10-----10-1010--|10\9-9-9-9-9-99-99|12-1212-12-1212109|
G------------------|-----------9----9-|-----9------------|------------------|
D------------------|------------------|------------------|------------------|
A------------------|------------------|------------------|------------------|
E------------------|------------------|------------------|------------------|
  Ohh ......	     Ohh ......		Ohh ......

Chorus 4 (Guitar1, Guitar 2)
----------------------------

(The Guitar parts for Chorus 4 are exactly the same as Chorus 1)

|-E----------------|-A----------------|-Dsus2------------|-A----------------|

 Ohh	      Rain   Another day While  Move as angels	   Gather up your
				   we			   blues and clear
							   the way

|-E----------------|-A----------------|-Dsus2------------|-A----------------|

 Ohh	      Hate   The games you play Touched by Jesus   Gather up your 
			   while we're			   blues and get out
							   of the way

Backing for Guitar Solo 2 (Guitar 1, Guitar 2)
----------------------------------------------

The guitar solo is too large to fit in the normal stave width so I've included
it in its own section underneath. The bar lines in the solo correspond to those
shown in the backing section.

Guitar 1
  E		     A			Dsus2		   A
E-----0-------0----|-----0-----0------|-----0------0-----|---------------0--|
B-----------0--0---|--------------2---|--------------3---|-----2--2---3-2---|
G----------1----1--|---2------2----2--|---2------2----2--|------------------|
D------------------|------------------|-0------0-------0-|---2--------------|
A---2--------------|-0------0---------|------------------|-0----------------|
E-0------0---------|------------------|------------------|------------------|
Guitar 2	   |		      |			 |		    |
  E5		   | A5		      |	D5		 | A5	      X  X  |
E------------------|------------------|------------------|------------D--U--|
B------------------|------------------|------------------|------------------|
G------------------|------------------|------------------|------------------|
D-9----------------|------------------|-7----------------|------------------|
A-7----------------|-7----------------|-5----------------|-7----------7--7--|
E------------------|-5----------------|------------------|-5----------5--5--|

	   Out of    The way			Ohhh ..		Blues and get
							  out of the

E-----0-----0------|---0--------0-----|-----0------0-----|------------------|
B----------0---0---|--------------2---|--------------3---|-----2--2---3-2-0-|
G---------------1--|-----2----2----2--|---2------2----2--|------------------|
D------------------|------------------|-0------0-------0-|---2--------------|
A---2--------------|-0------0---------|------------------|-0----------------|
E-0------0---------|------------------|------------------|------------------|
		   |		      |			 |		    |
E------------------|------------------|------------------|------------------|
B------------------|------------------|------------------|------------------|
G------------------|------------------|------------------|------------------|
D-9----------------|------------------|-7----------------|------------------|
A-7----------------|-7----------------|-5----------------|-7----------------|
E------------------|-5----------------|------------------|-5----------------|

 Way		     Ohhh ..			   Ohhh .......

Guitar 2
  E (rake)
E------------------|
B------------------|
G-9----------------|
D-9----------------|
A-7----------------|
E-0----------------|

Guitar Solo 2 (Guitar 3)
-------------------------
  E			   A
E---10----10----10----10-|--12---12------12----12-|		
B1212--1212-12-12--1212--|12---12-1212-12-12--12--|		
G------------------------|------------------------|
D------------------------|------------------------|
A------------------------|------------------------|
E------------------------|------------------------|

  Dsus2			   A
E-151515-151515-15-15----|---------------------12-|
B--------------------12--|1212-12--1212-12--12----|
G------------------------|------------------------|
D------------------------|------------------------|
A------------------------|------------------------|
E------------------------|------------------------|

  E			   A
E----12----------12------|----12------------12----|
B-12----12----12----12---|-12----12-12-12-12-12(0)|
G------------------------|------------------------|
D------------------------|------------------------|
A------------------------|------------------------|
E------------------------|------------------------|

  Dsus2			   A		       ~~~~
E----14-12------12-------|---------------0-15b17--|
B1212------1212---12-1212|1212-12--12-12----------|
G------------------------|------------------------|
D------------------------|------------------------|
A------------------------|------------------------|
E------------------------|------------------------|


Tab Key:
 
       YbZ - bend the note at fret Y to the same pitch 
	     as the note found at fret Z
	/  - slide up
	\  - slide down
	X  - mute with palm of picking hand
	U  - upstroke
	D  - downstroke
	V  - volume swell
	() - incidental note
	[] - echo note
	~  - hold note
        rake - exagerate the strumming of the chord
       (but not enough for it to be an arpeggio)

Notes
In the intro and verses Guitar 1 uses a volume pedal to swell all the
notes.

There are alot of 'noise' effects in the intro and background of the
verses. The same noise track is used for both verses. If you want to
recreate this, its going to be down to your own experimentation - as
results will depend on what equipment you own.

In choruses 1, 2 and 4 Guitar 1 plays notes based on E, A and Dsus2
chord shapes. This part can be heard clearest in the left hand side
stereo channel. Guitar 2 plays the powerchords, sounding clearest in
the right hand side stereo channel. Chorus 3 differs in that it uses
diads, as in the 'Stratospheric Preaching' section.

The 'Stratospheric Preaching' section uses diads for the first 8 bars.
The last 8-bars are similar to a standard chorus.

In Guitar solo 1, the right hand stereo channel has the clean guitar.
In the left hand channel the solo has delay/echo added. The backing for
the solo is most prominant in the left hand channel - It can be tricky
to pick out as it blends in with the delayed solo guitar signal. The
backing track played by Guitar 1 is based around a 3-octave pattern,
using the root note of the implied backing chord. For the last 4-bars
Guitar 2 is present.

Guitar solo 2 is difficult to hear, as Guitar 3 is low in the mix.
This solo is based on the E-minor pentatonic scale. The backing for
the solo is similar to a standard chorus.

Share it With Me

(Cousin / Price / Regan / Willson-Piper)

These tabs have been copied from www.goony.nl
(an alternative transcription is available there as well)

Transcription by Jürgen Castan.

Part 1: (Intro and bridge to chorus)

Chords played by keyboard are noted above
  G                Em               Bm               C
E|--------5-------|--------5-------|--------5-------|--------5-------|
B|----3-------3---|----3-------3---|----3-------3---|----3-------3---|
G|--4---4---4---4-|--4---4---4---4-|--4---4---4---4-|--4---4---4-----|
D|----------------|----------------|----------------|----------------|
A|----------------|----------------|----------------|----------------|
E|----------------|----------------|----------------|----------------|

Just before start of chorus, Bar 4 of part 1 is played like this for introduction of G-chord
  G                
E|--------5-------|
B|----3-------3---|
G|--4---4---4-----|
D|----------------|
A|----------------|
E|--------------02|

Part 2: (Chorus)
Guitar 1 (Every chord is strummed once per bar, as noted)
  G                C
E|3---------------|0---------------|
B|0---------------|1---------------|
G|0---------------|0---------------|
D|0---------------|2---------------|
A|2---------------|3---------------|
E|3---------------|x---------------|

Guitar 2 (see notes)
  G                C
E|x---------------|x---------------|
B|3---------------|1---------------|
G|0---------------|0---------------|
D|0---------------|2---------------|
A|x---------------|x---------------|
E|x---------------|x---------------|
 
Part 2: Variation 1
Guitar 1 (Every chord is strummed once per bar, as noted)
  G                C
E|3---------------|0---------------|
B|0---------------|1---------------|
G|0---------------|0---------------|
D|0---------------|2---------------|
A|2---------------|3---------------|
E|3---------------|x-------------02|

Guitar 2 (as for normal version)


Part 3: (Verses)
  D   D9  D11 D    G       C
E|2---0---3---2---|3-------0-------|
B|3---3---3---3---|0-------1-------|
G|2---2---2---2---|0-------0-------|
D|x---x---x---x---|0-------2-------|
A|x---x---x---x---|2-------3-------|
E|x---x---x---x---|3-------x-------|

Part 4: (Middle part after second chorus)
  C                D       D   
E|x---------------|10------x-------|
B|8---------------|7-------10------|
G|5---------------|7-------7-------|
D|5---------------|x-------7-------|
A|x---------------|x-------x-------|
E|x---------------|x-------x-------|

Part 4, Variation 1 (introducing chorus)
  C                D       D   
E|x---------------|10------x-------|
B|8---------------|7-------10------|
G|5---------------|7-------7-------|
D|5---------------|x-------7-------|
A|x---------------|x-------x-------|
E|x---------------|x-------x-----02|

Song Structure

Intro:
1 x Part 1 (note that a chorus follows, so use special bar 4)

Chorus:
2 x Part 2
1 x Part 2 Variation 1
1 x Part 2

1. Verse:
4 x Part 3
D         D9          D11     D 
Madeleine hears the bohemians say 
      G 
She's selfish and crazy 
      Am                     D      D9  D11 
Which isn't so far from the truth, 
          D           G 
She's the essence of youth, 
                 Am                  D     D9  D11  D 
The flower you place on eternity's grave. 
       G                   Am 
The romantic who isn't afraid 
                     D    D9 
Of the beat of her heart, 
     D11       D            G 
She raises a glass to your art 
      Am 
And when she gets drunk she says... 

Bridge to chorus: 
2 x Part 1 (second time introduces chorus with different bar 4) 

G               Em                  Bm
Oh, give me the autumn, give me the trees,
          C  
Gather up everything I ever wanted
                  G
And give it me, please
            Em                 Bm
Give me the ocean, give me the sea
          C
Gather up everything I ever wanted


Chorus:
2 x Part 2
1 x Part 2 Variation 1
1 x Part 2
                  G   C
And share it with me
               G  C
Share it with me
               G  C
Share it with me
               G  C

2. Verse
4 x Part 3

Bridge
2 x Part 1

Chorus
2 x Part 2

Middle Part
7 x Part 4
1 x Part 4 Variation 1

Chorus
2 x Part 2
1 x Part 2 Variation 1
1 x Part 2

Bridge
3 x Part 1

Chorus
2 x Part 2
2 x Part 2 Variation 1
Last chord is G (surprise, surprise...) 


Notes

Part 1:
Harmonically, for the first three bars, everything is quite ok, but bar 4 seems 
somewhat strange since none of the notes picked by guitar are part of the C-Major 
chord, although they all fit into C-Major scale and into G-Major scale (song is
in G-major). Hmm, seems strange, but works somehow...
If you like to play along on your own (without keyboard or CD/MC/LP running in 
background), here's what I used for part 1 when I did some acoustic gigs or when
I play on my own :

  G
E|------5-----|------5-----|------5-----|------5-----|
B|---3-----3--|--03-0--03-0|---3-----3--|---3-0--03--|
G|--4--4--4--4|------------|--4--4--4--3|--0---------|
D|-5----------|-2----------|-4----------|-2----------|
A|------------|------------|2-----------|3-----------|
E|3-----------|0-----------|------------|------------|

Part 2:
It's not noted here how the chords are strummed for guitar 2, since this would 
be too complicated. Just listen to the record and try to catch up with MWP, 
which isn't that easy at first (at least it wasn't for me, especially in verses).
It's a good right hand training...

If you play on your own without a second guitarist (and which one of us has one
at hand if he needs him/her), just use the part of guitar 2, add the introduction
notes for G-Chord of guitar 2 and strum all 6 string at the beginning of a bar
(the missing frets of muted strings should be quite clear...)

Part 3:
Sorry if the names of the different D-chords aren't correct... my musical-theory
knowledge got stuck in a traffic jam and couldn't drop by when I was doing this
transcription.
Noting the strumming would have been to complicated here, as for Part 2.

Part 4:
Noting the strumming would have been to complicated here, as for Parts 2 and 3
Note that these are neither minor nor major chords, so the chord names noted
above aren't correct. Nevertheless, concerning the harmonic of the song, they
are major chords are the right choice.

Rhythm Of Life

(Cousin / Price / Regan / Willson-Piper)

These tabs have been copied from www.goony.nl
(an alternative transcription is available there as well)

Transcription by Doron Sayar.

Part 1: Intro 

Am                 G                Am              G        F7 
E|--------0-------|--------0-------|--------0-------|--------0-------| 
B|----0-1---1-0-1-|----0-1---1-0-1-|----0-1---1-0-1-|----0-1-1-1-0-1-| 
G|--2-------------|--0-------------|--2-------------|--0-----2-------| 
D|----------------|----------------|----------------|--------3-------| 
A|0---------------|----------------|0---------------|----------------| 
E|----------------|3---------------|----------------|3---------------| 

  

  Am      C        G       F7       Am      C        G       F7 
E|0---0-0-0---0-0-|3---3-3-0---0-0-|0---0-0-0---0-0-|3---3-3-0-------| 
B|1---0-1-1-2-0-1-|0---0-1-1-1-0-1-|1---0-1-1-2-0-1-|0---0-1-1-------| 
G|2-2-2-2-0---0-0-|0-0-0-0-2---2-2-|2-2-2-2-0---0-0-|0-0-0-0-2-------| 
D|2---2-2-2---2-2-|0---0-0-3---3-3-|2---2-2-2---2-2-|0---0-0-3-------| 
A|0-------3-------|2---------------|0-------3-------|2---------------| 
E|----------------|3---------------|----------------|3---------------| 

The nice thing here is that we can actually play both the lead and the 
backing chords at the same time - this really sounds genuine! 
Once in every chord shift, the second bit is a single note and the rest 
are chords, which gives the mixed feeling. 

Part 2: Verse 

I'm no where...    ever been     I'm no one I can't remember me     make it all 
  Em               C                Em               C 
E|----0-------0---|----3--5-3-5-3--|----0-------0---|----3--5-3-5-3--| 
B|----0-------0---|----3-----3---3-|----0-------0---|----3-----3---3-| 
G|----0-------0---|----5-----------|----0-------0---|----5-----------| 
D|----2--22-2-2---|----5-----------|----2--22-2-2---|----5-----------| 
A|-------22-2-----|3---------------|-------22-2-----|3---------------| 
E|0------00-0-----|----------------|0------00-0-----|----------------| 

  
  go.. showing me heaven...door    closed... 
  A                D       D#       Em 
E|0---------------|5-------6-------|----------------|----------------| 
B|2---------------|7-------8-------|----------------|----------------| 
G|2---------------|7-------8-------|----------------|----------------| 
D|2---------------|7-------8-------|----------------|----------------| 
A|0---------------|5-------6-------|----------------|----------------| 
E|x---------------|x-------x-------|----------------|----------------| 

        Like the church doors.. ..need a little      ..outside his... 
   Em               C                Em               C 
E|----0-------3232|----3--5-3-5-3--|----0-------3232|----3--5-3-5-3--| 
B|----0-------0000|----3-----3---3-|----0-------0000|----3-----3---3-| 
G|----0-------0000|----5-----------|----0-------0000|----5-----------| 
D|----2--22-2-----|----5-----------|----2--22-2-----|----5-----------| 
A|-------22-2-----|3---------------|-------22-2-----|3---------------| 
E|0------00-0-----|----------------|0------00-0-----|----------------| 

  
  know...  where were... needed ..to hold... 
  A                D       D#       Am 
E|0---------------|5-------6-------|----------------| 
B|2---------------|7-------8-------|----------------| 
G|2---------------|7-------8-------|----------------| 
D|2---------------|7-------8-------|----------------| 
A|0---------------|5-------6-------|----------------| 
E|x---------------|x-------x-------|----------------| 

The only difference between the 2 halves of the verse is 
the insertion of the second guitar on the Em. I know - 
it's easier typed than played! But even if you get somehow 
close to it then it's probably enough .

Part 3: Chorus - exactly like the second half of the intro! 

Part 4: Middle section 

Simply playing the following sequence of chords 4 times : 

  Em      G        F#      F 
E|0-------3-------|2-------1-------| 
B|0-------3-------|2-------1-------| 
G|0-------4-------|3-------2-------| 
D|2-------5-------|4-------3-------| 
A|2-------5-------|4-------3-------| 
E|0-------3-------|2-------1-------| 

The guitar solo is also based on the intro/chorus chords, and since 
it is somewhat blurred I can't think of any special notes for it. 

Basic Song Chords

Am     C     G        F 
INTRO 
Am     C    G        F 
INTRO 

     Em                C 
I'm no where that I've ever been 
     Em                C 
I'm no-one I can't remember me 
            A 
make it all go 
                  D 
You're showing me heaven 
     D# 
Your door is always 
Em               C 
Closed, like the church doors 
Em                                   C 
When you need a little Jesus, ooh outside his business hours you know 
A     D               D# 
Where were you when I needed you to 
Am    C  G                          F 
Hold me, give a little beat of your heart to me you've got to 
Am    C  G            F 
Hold me, the rythm of life to me, you've got to 
Am            C            G                          F 
(hold on now, hold on now) give a little beat of your heart to me 
Am            C            G             F 
(hold on now, hold on now), the rythm of life... 
   Em 
to me... 
  
And on... 

Are You Lonely

(Cousin / Livesey / Price / Regan / Willson-Piper)

These tabs have been copied from www.goony.nl
(an alternative transcription is available there as well)

Transcription by Jürgen Castan.

Part 1: (Verse & Chorus)

  Em7                      D        C                        D
E --------0-------|----------------|--------0-------|----------------|
B ----3-----3---3-|----3-------3---|----1-----1---1-|----1-------3---|
G --0---0-----0---|--0---0---2---2-|--0---0-----0---|--0---0---2---2-|
D ----------------|--------0-------|----------------|--------0-------|
A ----------------|----------------|3---------------|3---------------|
E 0---------------|0---------------|----------------|----------------|
  

Part 2: (Verse)

  Am               D
E ----------------|--------2-------|
B --------1-------|----3-----3---3-|
G ----2-----2---2-|--2---2-----2---|
D --2---2-----2---|0---------------|
A 0---------------|----------------|
E ----------------|----------------|


Part 3: (Middle-Part)

(The first line of chords is the last repetition of the chorus, 
which ends with an C here because of following F-Chord)

  Em7                      D        C                     
E --------0-------|----------------|--------0-------|----------------|
B ----3-----3---3-|----3-------3---|----1-----1---1-|----1-------3---|
G --0---------0---|--0---0---2---2-|--0---------0---|--0-------2---2-|
D 2-----2---------|2-------0-------|----------------|--------0-------|
A ----------------|----------------|3-----3---------|3-----3---------|
E ----------------|----------------|----------------|----------------|

(Begin of middle part)

  F                C                  Dm               A#
E --------1-1-----|--------0H3P0-----|--------3-1-----|----------------|
B ------1-----1---|----1---------3---|----3-------3---|6-3---------3---|
G ----2---------2-|------0---------2-|--2---2-------2-|----3---------3-|
D --3-------------|--2---------------|0---------------|------3---3-----|
A 3---------------|3-----------------|----------------|--------5-------|
E ----------------|------------------|----------------|----------------|

(Distorted guitar during middle part)
E ----------------|------------------|----------------|----------------|
B ----------------|------------------|----------------|----------------|
G ----------------|------------------|----------------|----------------|
D 3-----------x-x-|2-----------------|----------------|3---------------|
A ----------------|--------------5-3-|5---------------|1---------------|
E ----------------|------------------|----------------|----------------|

Note: H stands for a hammer-on, P for a pull-off

Song structure

Intro: (2 times Part 1, beginning at 00:15 of track on CD)

1.Verse: (4x Part 1)
Em7    D         C                D    Em7  
Do you feel so small, on a sunday afternoon
         D        C              D     Em7
In your loveless house, full of empty rooms
         D       C           D     Em7
Once a place of life, once upon a time
            D     C                 D
Flames are dying out, while ghosts move in

1. Verse (3x Part 2)
Am  D                 Am      D              Am
    Crossing on the stair, asleep in empty chairs
    D
So tell me are you

Chorus: (2x Part 1)
Em7     D   C   D
Lonely         Are you
Em7     D   C   D
Lonely


2. Verse (same as first verse, 4x 1 Part, 3x 2. Part)

Chorus (2x Part 1, C is played instead of last D for introduction of middle part)


Middle part: (3x Part 3)
       F                 C               Dm                 A#
while love lives, while suns set, while snowmoons rise in november skies
       F                C               Dm                 A#
while ties bind, while souls cry, while oceans ride in an endless tide
       F                  C                Dm                      A#         Em7 (first chord of chorus)  
while love grows, while blood flows, while truth is real you need never feel alone


Chorus (2x Part 1)

3. Verse (3x Part 2)

Repeat Chorus (4x Part 1)

Notes

This song is surprisingly simple although it kicks you right between 
the eyes when you first hear it. Almost only simple major and minor 
chords are used, except one minor seven, which, in my opinion, gives 
the song what is so special about it (in combination with the vast 
use of strings, the incredible melody-line and the arrangement, 
which begins very calm and ends in a explosion of sounds).

The first part is used for verses as well as chorus, which also 
includes some piano/keyboard.
The second part is the one between the verses and chorus and uses 
almost the same picking scheme as the first part, only the chords differ.

Since the chords of part 3 are not played by guitar (strings are used here), 
I tried to figure out the correct chords and added a guitar-picking of my own, 
which I hope is somewhat ok. I also noted what I think the distorted guitar 
plays during this part (This is somewhat hard to figure out since it is not 
clear which part is strings and which is guitar...)