Pride Before a Fall

(The Church)

Transcribed by Stefan Horlitz

Dark intro (power chords)
F | B | Bb| Eb|

C | C/B  | Fsus2/A | C | C/B | Fsus2

D | Fmaj7/C | D | Fmaj7

Dark part returns

Verse returns

Chorus returns, keeps on playing when Tim starts singing

Laurel Canyon

(The Church)

Transcribed by Stefan Horlitz

Verse

D  em7  D/G  G  A
D  em7  G    f#m

Chorus

em7  bm  f#m  G  A
em7  D   f#m  G

Bridge

|: Cmaj7  bm :|

Final Chord

cmaj7

Miami

(The Church)

Transcribed by by Daniel Marcantonio

Verse
Riff 1
These riffs loop under the verse, listen to the song to get a feel for the rhythm.

E|--------|--------|--------|--------|
B|--------|--------|--------|--------|
G|22222222|22222222|02020202|02020202|
D|22222222|22222222|22222222|22222222|
A|--------|--------|--------|--------|
E|--------|--------|--------|--------|

Riff 2
E|--------|--------|--------|--------|
B|--------|--------|--------|--7-87--|
G|--------|--------|--------|-7-7--7-|
D|--------|--------|--------|-------7|
A|--------|--------|--------|--------|
E|--------|--------|--------|--------|

Bass Riff
G|--------|--------|--------|--------|
D|7-------|--------|--------|-9997-5-|
A|--------|--------|--------|------- |
E|--------|--------|--------|--------|


                     Riff 1 starts on the "am" of "Miami"

I'm moving back to Miami
And you'll be able to see me
I'm living down by the sea babe
Now you'll be able to see me (any time you like)

Pre-Chorus

F          G
And if you walk way
F           G
Nothing will change
F                 G
I think that it's strange

Chorus
Badd4
I think that it's easy
B/D#
It's easy for you
E
Asleep in the darkness
D
After what you went through
Badd4
My curtains are open
B/D#
Fog confuses the light
E
Some distant reflection
D
Some elusive night
G
Alright

***Because of the many layers of instruments
 (multiple guitars, bass and keyboard) in this song, its
hard to pick out a single way to voice the chords. However,
I find that these chord positions work well.

  Badd4    B/D#     E        D
E|--------|2-------|0-------|x-------|
B|4-------|4-------|0-------|3-------|
G|4-------|4-------|1-------|2-------|
D|4-------|4-------|2-------|0-------|
A|2-------|2-------|2-------|0-------|
E|0-------|x-------|0-------|2-------|