The Faith Healer

(Alex Harvey / Hugh McKenna)

Transcription by Brian Hutton

Chug away using G until this riff comes in
|----------------|----------------|----------------|
|3---------------|5---3-----------|5---3-----------|
|3---------------|5---3-----------|5---3-----------|
|3---------------|5-5-3-----------|--5-------------|
|----------------|--5-------------|--5-------------|
|----------------|----------------|----------------|

Chorus
Bb               A                G
|----------------|----------------|----------------|----------------|
|----------------|----------------|----------------|----------------|
|3---------------|2---------------|----------------|----------------|
|3---------------|2---------------|----------3h5p3-|---------3h5p3--|
|1---------------|0---------------|3h5-3h5-5------5|3h5-3h5-5------5|
|----------------|----------------|----------------|----------------|
The faith healer The faith healer

The Oh oh oh bit seems to be G A Bb A Bb C Bb A G

Then                              with previous two bars
|----------------|----------------|6b-5-3---6b-5-3-|6b-5-3---6b-5-3-|
|----------------|----------------|-------4-------4|-------4-------4|
|3b-2-0---3b-2-0-|3b-2-0---3b-2-0-|----------------|----------------|
|-------1-------1|-------1-------1|----------------|----------------|
|----------------|----------------|----------------|----------------|
|----------------|----------------|----------------|----------------|

The end is G A Bb C Bb A G A Bb

The Porpoise Song

(Gerry Goffin / Carole King)

Taken from a thread at Hotelwomb
Transcription by Altres

Intro:

E E7/D A/C# G
/ / / / / / / / / / / / / / / /
A F# B Bmaj7 [hold 4 bars]
/ / / / / / / / / / / / /

(piano; acoustic gtr. enters 2nd bar):

E
/ / / / / / / /

Verse 1:

E C D A
My, my the clock in the sky is pounding away
E (organ fill: E A/E E7(no3) A/E)
There's so much to say
E C D A
A face, a voice, an overdub has no choice
E
And it cannot rejoice

A /G D/F# Esus4
Wanting to be, to hear and to see
A /G D/F#
Crying to the sky
E E7/D A/C# D
But the porpoise is laughing goodbye, goodbye
G D [vocals imply Dsus2]
Goodbye, goodbye, goodbye

Break: (bass, doubled w/strings)

D
v v v v
-9-7---4-2-------
-----------4-2-0-
-----------------
-----------------

Verse 2:

Clicks, clacks, riding the backs of giraffes for laughs
Is all right for a while
The ego sings of castles and kings and things
That go with a life of style

Wanting to feel, to know what is real
Living is a lie
The porpoise is waiting, goodbye, goodbye
Goodbye, goodbye, goodbye
Coda
G D
Goodbye, goodbye, goodbye
G Bm
Goodbye, goodbye, goodbye

All The Young Dudes

(David Bowie)

Transcription by Brian Hutton

If playing these chords in the open position then
instead of the A6/C# you can play F#m7 and strum from the C#

Intro X 2 Second Time LOUDER

|2-----2-02020---|----------------|----------------|------------2~--|
|--3-----------2-/3-----3-23232-0-|2-2-2-2-1-0-----|2-2-2-2-0-------|
|----2-----------|--4------------2|------------2~--|----------2-----|
|----------------|----4-----------|----------------|----------------|
|----------------|----------------|triplets--------|----------------|
|----------------|----------------|----------------|----------------|
                                                                Well Billy
Verse
D       A6/C#    Bm      D/A      F#m              A
|----------------|----------------|----------------|----------------|
|7--------5------|----------------|----------------|----------------|
|7--------6------|7--------7------|2---------------|6---------------|
|7--------7------|9--------7------|4---------------|7---------------|
|5--------4------|9--------5------|4---------------|7---------------|
|----------------|7--------5------|2---------------|5---------------|
rapped.. suicide kick it.. twenty speed jive..        When you're 25  and
Wendy's unlocked Fredies  ripping face                boat race.  The

Em               F#7         B F  G       D        Asus4   A        A
|----------------|----------------|----------------|----------------|-------
|----------------|----------------|--------7-------|----------------|-------
|0---------------|3---------------|4-------7-------|7-------6-------|-------
|2---------------|2-----------4---|5-------7-------|7-------7-------|-------
|2---------------|4-----------2-4-|5-------5-------|7-------7-------|-------
|0---------------|2-------------2-|3---------------|5-------5-------|-------
television man  juvenile wrecks oh man   TV           T. Rex     oh
brother..

Chorus - repeat
D       A6/C#    Bm7      D/A     Am      G        F      C/E
|----------------|----------------|----------------|----------------|------
|---------5------|----------------|----------------|----------------|------*
|7--------6------|7--------7------|5-------4-------|2-------5-------|------7
|7--------7------|7--------7------|7-------5-------|3-------5-------|4-5-6-7
|5--------4------|9--------5------|7-------5-------|3-------3-------|2-3-4-5
|----------------|7--------5------|5-------3-------|1-------0-------|------
         All dudes..       carry  news    boo-ga dudes      carry