Almost With You

(Kilbey)

Tabbed by Andy Perks

Andy says:
I have done the solo in tablature form - it is almost the same as the solo from the other transcription down below but there are a couple of variations. It shows the double-notes towards the end of the solo and I use a slightly different set of chords - I've shown the chord changes where I make them when playing it. Also, during the verse, I use a G instead of one of the Em chords.


Solo:

    G    C      Bm     C       F            G     Bm     Em
e |------------------------------------------------------------
B |------------------------------------------------------------
G |------------------------------------------------------------
D |---------------------------------------------------2-4-5-4--
A |-5-5---5-3-2-3-2-------2-----------2-3-2-3-2---5-----------5
E |-----------------3---5---3---1-3-5-----------3--------------

     F        C     G                   G       C     Bm
e |------------------------------------------------------------
B |---------------------------------------------------3--------
G |-----------------------------------------4-4-4-2------------
D |---------------------------------2-4-5-----------5----------
A |---5-5-3-2-3-2-------------2-3-5----------------------------
E |---------------3-3---3-3-5----------------------------------

      C      F              G         Bm      Em
e |------------------------------------------------------------
B |-----------------------------12-13-13-12---12-13-12---------
G |-5-5-4---------2-4-5-4-2-----12------------12-------14-12---
D |-------5---3-5-----------5----------------------------------
A |------------------------------------------------------------
E |------------------------------------------------------------
   F            C        G                    D
e |---------------------------10-12-10-------------------------
B |------------------------------------13-12-10----------------
G |----15-14--------------------------------------12-11---9----
D |-15-------15-15-14-12-12---------------------------------12-
A |-15---------------------------------------------------------
E |------------------------------------------------------------




   G     C      Bm      C       F           G     Bm      Em      F
C     G
e
|------------------------------------------------------------------------------
B
|------------------------------------------------------------------------------
G
|------------------------------------------------------------------------------
D
|---------------------------------------------------2-4-5-4--------------------
A
|-5-5---5-3-2-3-2-------2-----------2-3-2-3-2---5-----------5---5-5-3-2-3-2----
E
|-----------------3---5---3---1-3-5-----------3-----------------------------3-3


   G                C       Bm    C
e
|------------------------------------------------------------------------------
B
|-------------------------------3-------------------------------12-13-13-12----
G
|---------------------4-4-4-2-------5-5-4---------2-4-5-4-2-----12-------------
D
|-------------2-4-5-----------5-----------5---3-5-----------5------------------
A
|-------2-3-5------------------------------------------------------------------
E
|-3-3-5------------------------------------------------------------------------

e
|--------------------------------------------10-12-10--------------------------
B
|-12-13-12--------------------------------------------13-12-10-----------------
G
|-12-------14-12------15-14--------------------------------------12-11---9-----
D
|------------------15-------15-15-14-12-12---------------------------------12--
A
|------------------15----------------------------------------------------------
E
|------------------------------------------------------------------------------


Intro:  C   G   Am7   G        C   G   Am7   G        C   G   Am7   Am7
G


  G        D           Em7      D
 See the chains which bind the men
C         G                D     Am          G
 Can you taste their lonely arrogance, uh oh oh
                  D            Em7         D
 It's always too late and your face is so cold
C               G       C    D
 They struggled for this opulence

  G       D          Em7       D
 See the suns which blind the men
C       G            D          Am         G
 Burnt away so long before our time, uh oh oh
             D           Em7        D
 Now their warmth is forgotten and gone
C        G       C       D
 Pretty maids not far behind

  F
 Who you tryin' to get in touch with
  Em
 Who you tryin' to get in touch with
  D
 Who you tryin' to get in touch with

C            G      Am7                G
 I'm almost with you,  I can sense it wait for me
C            G      Am7                      G
 I'm almost with you,  is this the taste of victory
C            G        Am7     Am7     G
 I'm almost with you

  G       D          Em7         D
 See the dust which fills your sleep
C        G                  D            Am         G
 Does it always feel this chill near the end, uh oh oh
           D          Em7             D
 I never dreamed we'd meet here once more
C      G           C        D
 This life reserved for a friend

  F
 Who you tryin' to get in touch with
  Em
 Who you tryin' to get in touch with
  D
 Who you tryin' to get in touch with

C            G      Am7                G
 I'm almost with you,  I can sense it wait for me
C            G      Am7                      G
 I'm almost with you,  is this the taste of victory
C            G        Am7     Am7     G
 I'm almost with you

Solo: G C Bm C F G Bm Em F C G
      G C Bm C F G Bm Em F C G D


C            G      Am7                G
 I'm almost with you,  I can sense it wait for me
C            G      Am7                      G
 I'm almost with you,  is this the taste of victory
C            G      Am7                G
 I'm almost with you,  I can sense it wait for me
C            G      Am7                      G
 I'm almost with you,  is this the taste of victory
C            G       Am7   G   C            G       Am7   G
 I'm almost with you,           I'm almost with you
C            G       Am7    Am7    G
 I'm almost with you


Here's an older transription taken from Shadow Cabinet:

[G]See the [D]chains which [C]bind the [G]men
[C]Can you [G]taste their lonely [D] arro [Am] gance
[G]It's always too [D]late
And your [C]face is so [G]cold
[C]They struggled [G]for this [C]opul[D]ence

[G]See the [D]suns which [C]blind the [G]men
[C]Burnt a[G]way so long [D] be [Am] fore our time
[G]Now their [D]warmth is for[C]gotten and [G]gone
[C]Pretty [G]maids not [C]far be[D]hind

{soc}
[F]Who you trying to get in touch with [Em] [D]
[C]I'm almost [G]with you
[Am]I can sense it [G]wait for me
[C]I'm almost [G]with you
[Am]Is this the taste of [G]victory
[C]I'm almost [D]with you
{eoc}

See the dust which fills your sleep
Does it always feel this chill near the end
I never dreamed we'd meet here once more
This life reserved for a friend

{c:Chorus}

Solo: G Bm7 Am G  F C Bm7 Em F C G
      G Em  Bm Em F G Bm7 Em F C G

Here comes another transcription made by Mick Anderson:

  C   G   Am7   G        C   G   Am7   G        C   G   Am7   Am7   G

  G        D           Em7      D    (g) (f#) (e)
 See the chains which bind the men
C         Em7              D     Am          G
 Can you taste their lonely arrogance, uh oh oh
                  D            Em7         D    (g) (f#) (e)
 It's always too late and your face is so cold
C               Em7     C    D
 They struggled for this opulence

  G       D          Em7       D    (g) (f#) (e)
 See the suns which blind the men
C       Em7          D          Am         G
 Burnt away so long before our time, uh oh oh
             D           Em7        D    (g) (f#) (e)
 Now their warmth is forgotten and gone
C        Em7     C       D
 Pretty maids not far behind

  F
 Who you tryin' to get in touch with
  Em
 Who you tryin' to get in touch with
  D
 Who you tryin' to get in touch with

C            G      Am7                G
 I'm almost with you,  I can sense it wait for me
C            G      Am7                      G
 I'm almost with you,  is this the taste of victory
C            G        Am7     Am7     G
 I'm almost with you

  G       D          Em7         D    (g) (f#) (e)
 See the dust which fills your sleep
C        Em7                D            Am         G
 Does it always feel this chill near the end, uh oh oh
           D          Em7             D    (g) (f#) (e)
 I never dreamed we'd meet here once more
C      Em7         C        D
 This life reserved for a friend

  F
 Who you tryin' to get in touch with
  Em
 Who you tryin' to get in touch with
  D
 Who you tryin' to get in touch with

C            G      Am7                G
 I'm almost with you,  I can sense it wait for me
C            G      Am7                      G
 I'm almost with you,  is this the taste of victory
C            G        Am7     Am7     G
 I'm almost with you

SOLO:  d   d d    d  c  b  c  b g   a  b  g    f g a b c b c  b  g d
     e  f# g  f# d    d d  c  b  c  b  g g
     g g a b c d e f# g    b  b b  a  g  d    c c  b  g
     f g a b c b g d    b  c c  b   b c b a  g    f bb  a  f f  e  d  d
     e  d  c  b  a    g f#  e d

C            G      Am7                G
 I'm almost with you,  I can sense it wait for me
C            G      Am7                      G
 I'm almost with you,  is this the taste of victory
C            G      Am7                G
 I'm almost with you,  I can sense it wait for me
C            G      Am7                      G
 I'm almost with you,  is this the taste of victory
C            G       Am7   G   C            G       Am7   G
 I'm almost with you,           I'm almost with you
C            G       Am7    Am7    G
 I'm almost with you

When You Were Mine

(Kilbey)

Taken from Shadow Cabinet

[A]On a day like this[Bm], [G]a hundred [A]lifetimes ago [Bm] [G]
[A]You on a shore, [G]across the point
I [F#m]looked through my hands and you [F]drew me a [Esus4]line [E]
When you were [A]mine [Bm] [G]

On a world like this, a hunderd turns left to go
Deep in a room, which I've never seen
Outside it's so cold but I'm waiting for time
When you were mine

{soc}
[Bbm]Plenty of [Ab]islands bet[Bbm]ween now and [Ab]then
[Bbm]Rocks break the [Ab]boats of the [Bbm]painted face [Ab]men
And they [F#]drown, and they're [F]born
And they [F#]live once [F]again
[F#]And this all [Ab]happens
[F]When you were mine [A] [Bm] [G]
{eoc}

In a storm like this, a hundred kisses of snow
You with another so easily sleep
What's real and what's dreamt become close and entwine
When you were [B]mine [C#m] [A]

Field Of Mars

(Kilbey / Willson-Piper)

Taken from Shadow Cabinet

[F9]It's a long way home from the [C]Field of Mars
[F]Distant, alone, beneath the [C]platimun stars
[G]And I turn to look, but I'm [F]never any closer
[G]Only just the rain [F]makes the skin feel colder
||:[Am]All my life seems so [G]far away:||

The air is soft in the Field of Mars
Tears and loss feed the overgrown grass
And I have to leave, but I never seem to go
Only more sad clouds where autumn winds will blow
All my dreams seem so long ago

{soc}
||:[C]Oh, [F]Field of Mars :||
{eoc}

Time is past in the Field of Mars
Grief won't last in the departing cars
And I call her name, but she never, ever hears
And I call again to the cruelty of the years
Oh my love she's so far away

{c:Chorus}

An Interlude

(Kilbey / Koppes / Willson-Piper / Ploog)

Taken from Shadow Cabinet

The intro is fairly simple.

E --0---0---0---0-
B -0-0-0-0-0-0-0-0
G 2---2---1---1---

"They're [A9]going to send you [E]away" she said
[A9]Psychic angels spread on the [E]top of her head
And [A9]in the compartments [E]of my dread
The [A9]rush hour crush travels home to [E]bed

"You never seem to hear" she smiled
Statues tiptoe for a glimpse of the child
The lawns are always lush and wild
Spacious floors bejewelled and tiled

"How are you getting home" she laughed
Mermaids drowned but I clung to the raft
It's just the water in the bath
An interlude for the busy staff

Secret Corners

(Kilbey)

Taken from Shadow Cabinet

[C]Lying alone, [G]isn't that you
[F9]Drifting away
Is the [Am]only thing [G]left to do
[C]Such a sad place, [G]such a lost world
But [F9]nothing is sadder
Than the [Am]tears of a [G]make-believe [F]girl [G]

Who is this child, who is this man
Only two people
Who are doing all they can
Frost on the ground, the cruel winds of fate
Blow us forever
And I know there's just no escape

[Am]Run to the secret corners [E]of your room
I'll still be [G]waiting
I'll still be [F]waiting [C] [G] [F] [Am] [G] [F] [C]

James Dignan adds.....

|-------3-|-------3-|-------3-|---------|--------|
|-------1-|-------1-|-----1-1-|-----010-|------0-|
|-----0---|-----0---|---2-----|---------|--------| repeat ad nauseum
|---2-----|---0-----|-3-------|---------|----0---|
|-3-------|-2-------|---------|---3-----|--------|
|---------|---------|---------|-5-------|--3-----|
                                     *

* this 1 is hammered on and off. the 5 on the bass E could be played as an
open A string. This doesn't sound "right", but the stretch is pretty hard
on the left hand otherwise...

Just For You

(Kilbey)

Taken from Shadow Cabinet
Transcribed by James Dignan

D* G* A7sus4*
D* G* A7sus4*

D*                 G*                 A7sus4*
Sometimes when the darkness loses its hold
D*         G*           A7sus4*
I tread politely in the cold
G          A       G          A
Racking my brains, Pumping my veins
G               A                  D*
And taking the evening train from view
C               G           D*    C              G              D
But you know I never wanted to, Ah, you know I did it just for you

D*          G*              A7sus4*
And it's so easy to hurt me now
D*             G*       A7sus4*
And you've forgotten anyhow
G             A          G                   A
That certain ideas, Have changed through the years
G                 A                    D*
I purchased some tears just to see me through
C               G           D*    C              G              D
But you know I never wanted to, Ah, you know I did it just for you

A       A/Eb Em G
A       A/Eb Em G
A       A/Eb Em G
A       A/Eb Em
F G A  (play these as barre chords)
F G E
F G A
D* G* A7sus4*
D* G* A7sus4*

D*         G*                     A7sus4*
One day I noticed the world at my feet
D*                    G*              A7sus4*
Next day comes and it rolls into your street
G         A      G         A
Gathering speed, Paying no heed
G            A                  D*
That made me bleed until I was blue
C               G           D*    C              G              D
But you know I never wanted to, Ah, you know I did it just for you
C               G           D*    C              G              D
But you know I never wanted to, Ah, you know I did it just for you

D* G* A7sus4*
D* G* A7sus4*
D* G* A7sus4*
D* G* A7sus4*
D* G* A7sus4*
D* G* A7sus4*

D* G*               A7sus4*
Oh..........just for you (repeat and fade)

NOW... some of the chords are marked thus*. That means there are two
different chords being alternated between quickly (listen to the track for
where the changes are):

D* is between D x00232 and Dsus4 x00233 (sometimes D+2 x00230 is thrown in
too!)

G* is between G 320033 and G6 320030

A7sus4* is between A7sus4 002033 and a different A7sus4 002030, and
sometimes good ol' A7 002020

A/Eb is played x01220 (and sounds pretty horrible! The Church play it with
Steve hitting an Eb on the bass as Marty (?) plays an A)

Two guitars share lead duty in the instrumental (A A/Eb etc) bridge

|----0----|----0----|----0----|----0-------------|
|-202-320-|-202-320-|-202-320-|-202-3232-10-0----| at the asterisk,
|---------|---------|---------|---------2--2-202-| lead changes from
|---------|---------|---------|------------------| one guitar to
|---------|---------|---------|------------------| the other guitar...
|---------|---------|---------|-------*----------|

|-0----00-4444-|-5-787-55-|
|--313---------|----------| over this last "5", the other guitarist
|--------------|----------| is doing a trill on the same (top E) string
|--------------|----------| between the 12th and 15th frets...
|--------------|----------|
|--------------|----------|

A Fire Burns

(Kilbey)

Taken from Shadow Cabinet

[E]The rusty stream of [C#m]dawn comp[A]letes
[E]The scenes where cars once [C#m]crawled these [A]streets
A [E]face against the [C#m]moving [A]sky
[B]Brings back an alien hope
Just like they [A]said to me
Keep your heart inside your [E]coat [C#m] [A]

Well there's muddy shoes outside your door
Is anybody home I ask once more
A silver-plated jet comes home
But the map leads her astray
Just like they said to me
Find your heart and lose your [E]way [B]

{soc}
[E]A fire burns inside me
[D]The snow still falls in flakes
[C#m]The reins around a horse's throat
[B]Turn into a lake
[E]And people so familiar
[D]Their words are in my mind
[C#m]A fire burns inside me
[B]Dancing cool and blind
{eoc}

Beside the wall the flowers grow
And down the sticky stems I go
Watching changing skies below
Your arms so far away
Just like they said to me
Life is worth another stay

{c:Chorus}

To Be In Your Eyes

(Kilbey)

Taken from Shadow Cabinet

[G]Night-time is so lonely
When you hear a sound
But it's only an empty [CM7]heart
Beating on through the night
A sad sad drum
And I'm [G]lying here listening
And the raindrops are all glistening
In my [CM7]dreams
And it seems
That the sun never comes

{soc}
And I [Am]want my sad reflection
To go [FM7]drifting through the skies
To be in your [G]eyes
{eoc}

And I'm waking to this aching
And it's breaking me in two
All the space
All the waste
All the distance between me and you
And the people with their voices
Random choices will they ever learn
To really see
Really be on fire when their spirit burns

{soc}
I want the person inside me
To be someone I'd recognise
If he was in your eyes
{eoc}

So I'm waiting, contemplating
Relocating a faded image in my thoughts
But the memories are like clouds
Try so hard
But they never can be caught
But I'm trying, yes I'm trying
But I'm only lying in the dark
So alone
On my own
No one home

{soc}
And if love was worth a fortune
Then I'd need a rise
To be in your eyes
I want these words to be the things
I hoped you'd realised
To be in your eyes
{eoc}

You Took

(Kilbey / Koppes / Willson-Piper / Ploog)

Taken from Shadow Cabinet
Transcribed by Matthew Green

If any one has differences, please let me know.  i didn't spent 3
hours doing this to get it wrong... :-)

enjoy!

.mrg.

---
slides and bends are both written with \ and / characters.
listen to the song to work out which.

caret's indicate a harmonic.

the spaces between notes sorta says how the rythym goes, but
there is not really any separation except bars, and that
might even be dodgy.

rythym guitar at start.

E  | ---5-5-5-5----5-5-5-5--- |
B  | ----5-5-5-5----5-5-5-5-- |
G  | ------------------------ |
D  | --7---------7----------- |
A  | ------------------------ |
E  | ------------------------ |

repeat

E  | ---0-0-0-0----0-0-0-0--- |
B  | ----0-0-0-0----0-0-0-0-- |
G  | ------------------------ |
D  | --2---------2----------- |
A  | ------------------------ |
E  | ------------------------ |


then the little interlude at the start gives:

repeat

E  | ---5--5--5--5--5-------- | ---8--8--8--8--8-------- |
B  | ----5--5--5--5--5------- | ----8--8--8--8--8------- |
G  | --6--6--6--6--6--------- | --9--9--9--9--9--------- |
D  | ------------------------ | ------------------------ |
A  | ------------------------ | ------------------------ |
E  | ------------------------ | ------------------------ |

E  | ---3--3--3--3--3-------- | ---5--5--5--5--5-------- |
B  | ----3--3--3--3--3------- | ----5--5--5--5--5------- |
G  | --4--4--4--4--4--------- | --6--6--6--6--6--------- |
D  | ------------------------ | ------------------------ |
A  | ------------------------ | ------------------------ |
E  | ------------------------ | ------------------------ |

repeat until end of guitar solo.  tacit.


lead guitar:

E  ---- | ------------------------ | ------------------------ |
B  ---- | --10-9------------------ | --10-9----------9------- |
G  -9-- | --------9------------9-- | --------9---------9-9--- |
D  ---- | ----------11------------ | ----------11------------ |
A  ---- | ------------------------ | ------------------------ |
E  ---- | ------------------------ | ------------------------ |

E  | ------------------------ | ------------------------ |
B  | ------------------------ | -----------------9------ |
G  | ---------9-------------- | ---------9-----9---{-9-} | { first time only }
D  | ------------------------ | ------------------------ |
A  | --9-11-9----12-----12--- | --9-11-9----12---------- |
E  | ------------------------ | ------------------------ |

repeat.

E  | --9-910-109-9-10-10-9-9- | --9-910-109-9-10-10-9-9- |
B  | --10101010101010-10-1010 | --10101010101010-10-1010 |
G  | --9-99--9-9-9-9--9--9-9- | --9-99--9-9-9-9--9--9-9- |
D  | ------------------------ | ------------------------ |
A  | ------------------------ | ------------------------ |
E  | ------------------------ | ------------------------ |

E  | --4-45--54--4-5--5--4-4- | --4-45--54--4-5--5--4-4- |
B  | --5-55--55--5-5--5--5-5- | --5-55--55--5-5--5--5-5- |
G  | --4-44--44--4-4--4--4-4- | --4-44--44--4-4--4--4-4- |
D  | ------------------------ | ------------------------ |
A  | ------------------------ | ------------------------ |
E  | ------------------------ | ------------------------ |

E  | --9--------------------- | ------------------------ |
B  | --10-------------------- | ------------------------ |
G  | --9--------------------- | ------------------------ |
D  | ------------------------ | ------------------------ |
A  | ------------------------ | ------------------------ |
E  | ------------------------ | ------------------------ |

E  | ------------------------ | ------------------------ |
B  | ------------------------ | ------------------------ |
G  | ------------------------ | ------------------------ |
D  | ------------------------ | ------------------------ |
A  | ------------------------ | ------------------------ |
E  | ------------------------ | ------------------------ |

E  | ------------------------ | ------------------------ |
B  | ------------------------ | ------------------------ |
G  | ------------------------ | ------------------------ |
D  | --/7-------------2-4---- | --5---------------2-0--- |
A  | ------------------------ | ------------------------ |
E  | ------------------------ | ------------------------ |

E  | ------------------------ | ------------------------ |
B  | ------------------------ | -------------8/(10)\8/-- |
G  | ------------------------ | ------------------------ |
D  | --0--------------------- | ------------------------ |
A  | -------------3-2-------- | ------------------------ |
E  | ---------------------3-- | --0--\\\---------------- |

E  | ------------------------ | ---------------7-8-7---- |
B  | --(10)---(10)--------7-- | --8---------10---------- |
G  | -------------------9---- | ------------------------ |
D  | ------------------------ | ------------------------ |
A  | ------------------------ | ------------------------ |
E  | ------------------------ | ------------------------ |

E  | ------------------------ | ------------------------ |
B  | --7--------------------- | ------------------------ |
G  | -----------------9-7---- | --9-----\\\------------- |
D  | ---------------------9-- | ------------------------ |
A  | ------------------------ | ------------------------ |
E  | ------------------------ | ------------------------ |

E  | ---------15-15-15-15---- | --15-------------------- |
B  | --15/(17)-(17-17-17-17~) | ----(17-17-17-17)---15-- |
G  | ------------------------ | ------------------------ |
D  | ------------------------ | ------------------------ |
A  | ------------------------ | ------------------------ |
E  | ------------------------ | ------------------------ |

E  | ------------------------ | ------------------------ |
B  | --15----------13-12----- | ------------------------ |
G  | --------------------12-- | --14-------------------- |
D  | ------------------------ | ------------------------ |
A  | ------------------------ | ------------------------ |
E  | ------------------------ | ------------------------ |

tacit.


base guitar at intro.

G  | ------------------------ | ------------------------ |
D  | ------------------------ | --------------12^------- |
A  | ------------------------ | -----------------12^---- |
E  | ------------------------ | --------------------12^- |

HERE:

G  | ------------------------ | ------------------------ |
D  | --------------12^------- | --------------12^------- |
A  | --0---0----------12^---- | --0---0----------12^---- |
E  | --------------------12^- | --------------------12^- |

G  | ------------------------ | ------------------------ |
D  | --------------12^------- | ---------------7^------- |
A  | --0---0----------12^---- | --0---0-----------7^---- |
E  | --------------------12^- | ---------------------7^- |

G  | ------------------------ | ------------------------ |
D  | ---------------7^------- | ---------------7^------- |
A  | ------------------7^---- | ------------------7^---- |
E  | --0---0--------------7^- | --0---0--------------7^- |

G  | ------------------------ | ------------------------ |
D  | ---------------7^------- | --------------12^------- |
A  | ------------------7^---- | -----------------12^---- |
E  | --0---0--------------7^- | --0---0-------------12^- |

repeat from HERE: a couple of times.

base does something with `A C G A' for a while at intro
interlude, evenutally going to a:

G  | ------------------------ | ------------------------ |
D  | ------------------------ | ------------------------ |
A  | --12^0-12^0-12^0-12^0--- | --12^0-12^0-12^0-12^0--- |
E  | ------------------------ | ------------------------ |

like pattern with `A A A A D A D A E D A A' for each verse... ie,

A                            A
you took a piece of my heart
A                            A
you took a piece of my heart
D                    A
and i don't know why
D                    A
no, i don't know why
E
it was clear in coming here
D                                    A
i must have put the horse before the cart
A
before the cart

repeat for verses.


guitar 1:  (starts at `E' above)

E  | ------------------------ | ------------------------ |
B  | ------------------------ | --3--------------------- |
G  | --1--------------------- | --2--------------------- |
D  | --2--------------------- | --0--------------------- |
A  | --2--------------------- | ------------------------ |
E  | --0--------------------- | ------------------------ |

    it was clear in coming here i must have put the horse before the

E  | ------------------------ | ------------------------ |
B  | ----2------------------- | ------------------------ |
G  | ----2------------------- | ------------------------ |
D  | ----2------------------- | ------------------------ |
A  | --0--------------------- | ------------------------ |
E  | ------------------------ | ------------------------ |
    cart,                      before the cart.


guitar 1:

E ----  | ------------------------ | ------------------------ |
B ----  | --2--------------------- | ------------------------ |
G ----  | --2--------------------- | ------------------------ |
D ----  | --2--------------------- | ------------------------ |
A ----  | --0--------------------- | ------------------------ |
E ----  | ------------------------ | ------------------------ |

guitar 2:

E ----  | --17-------------------- | ------------------------ |
B -14-  | ------------------------ | --------------------14-- |
G ----  | ------------------------ | ------------------------ |
D ----  | ------------------------ | ------------------------ |
A ----  | ------------------------ | ------------------------ |
E ----  | ------------------------ | ------------------------ |

guitar 3:

E ----  | ----------9------------- | ----------9------------- |
B ----  | ----------10------------ | ----------10------------ |
G ----  | ----------9------------- | ----------9------------- |
D ----  | ------------------------ | ------------------------ |
A ----  | ------------------------ | ------------------------ |
E ----  | ------------------------ | ------------------------ |
         you took the lead from the start


guitar 1:

E  | ------------------------ | ------------------------ |
B  | --2--------------------- | ------------------------ |
G  | --2--------------------- | ------------------------ |
D  | --2--------------------- | ------------------------ |
A  | --0--------------------- | ------------------------ |
E  | ------------------------ | ------------------------ |

guitar 2:

E  | --17-------------------- | --------------------17-- |
B  | ------------------------ | ------------------------ |
G  | ------------------------ | ------------------------ |
D  | ------------------------ | ------------------------ |
A  | ------------------------ | ------------------------ |
E  | ------------------------ | ------------------------ |

guitar 3:

E  | ----------9------------- | ----------9------------- |
B  | ----------10------------ | ----------10------------ |
G  | ----------9------------- | ----------9------------- |
D  | ------------------------ | ------------------------ |
A  | ------------------------ | ------------------------ |
E  | ------------------------ | ------------------------ |
    you took the lead from the start


guitar 1:

E  | --2---0---2---0--------- | ------------------------ |
B  | --3--------------------- | ------------------------ |
G  | --2--------------------- | ------------------------ |
D  | --0--------------------- | ------------------------ |
A  | ------------------------ | ------------------------ |
E  | ------------------------ | ------------------------ |

guitar 2:

E  | ------------------------ | --17-------------------- |
B  | --15----------------14-- | ------------------------ |
G  | ------------------------ | ------------------------ |
D  | ------------------------ | ------------------------ |
A  | ------------------------ | ------------------------ |
E  | ------------------------ | ------------------------ |

guitar 3:

E  | ----------10------------ | ----------9------------- |
B  | ----------10------------ | ----------10------------ |
G  | ----------11------------ | ----------9------------- |
D  | ------------------------ | ------------------------ |
A  | ------------------------ | ------------------------ |
E  | ------------------------ | ------------------------ |
    and i           don't know why


guitar 1:

E  | --2---0---2---0--------- | ------------------------ |
B  | --3--------------------- | ------------------------ |
G  | --2--------------------- | ------------------------ |
D  | --0--------------------- | ------------------------ |
A  | ------------------------ | ------------------------ |
E  | ------------------------ | ------------------------ |

guitar 2:

E  | ------------------------ | --17----------------12-- |
B  | --15----------------14-- | ------------------------ |
G  | ------------------------ | ------------------------ |
D  | ------------------------ | ------------------------ |
A  | ------------------------ | ------------------------ |
E  | ------------------------ | ------------------------ |

guitar 3:

E  | ----------10------------ | ----------9------------- |
B  | ----------10------------ | ----------10------------ |
G  | ----------11------------ | ----------9------------- |
D  | ------------------------ | ------------------------ |
A  | ------------------------ | ------------------------ |
E  | ------------------------ | ------------------------ |
    no i,           don't know why


guitar 1:

E  | ------------------------ | ------------------------ |
B  | ------------------------ | --3--------------------- |
G  | --1--------------------- | --2--------------------- |
D  | --2--------------------- | --0--------------------- |
A  | --2--------------------- | ------------------------ |
E  | --0--------------------- | ------------------------ |

guitar 2:

E  | --------------------10-- | ------------------------ |
B  | --12-------------------- | --10----------------14-- |
G  | ------------------------ | ------------------------ |
D  | ------------------------ | ------------------------ |
A  | ------------------------ | ------------------------ |
E  | ------------------------ | ------------------------ |

guitar 3:

E  | ----------12------------ | ----------10------------ |
B  | ----------12------------ | ----------10------------ |
G  | ----------13------------ | ----------11------------ |
D  | ------------------------ | ------------------------ |
A  | ------------------------ | ------------------------ |
E  | ------------------------ | ------------------------ |
    it was clear in coming here i must have put the skin before the


guitar 1:

E  | ------------------------ | ------------------------ |
B  | ----2----------------0-- | --3------2-------------- |
G  | ----2------------------- | -------------------0---- |
D  | ----2------------------- | -----------------4------ |
A  | --0--------------------- | ------------------------ |
E  | ------------------------ | ------------------------ |

guitar 2:

E  | --17-------------------- | ------------------------ |
B  | ------------------------ | ------------------------ |
G  | ------------------------ | ------------------------ |
D  | ------------------------ | ------------------------ |
A  | ------------------------ | ------------------------ |
E  | ------------------------ | ------------------------ |

guitar 3:

E  | ----------9------------- | ----------9------------- |
B  | ----------10------------ | ----------10------------ |
G  | ----------9------------- | ----------9------------- |
D  | ------------------------ | ------------------------ |
A  | ------------------------ | ------------------------ |
E  | ------------------------ | ------------------------ |
    heart,                      before the heart.


base goes on G for while, then to A.  repeat.


lead guitar:

E  | --3--------2----0--0-2-- | --0-------------0------- |
B  | ------------------------ | ------------3-------2--- |
G  | ------------------------ | ------------------------ |
D  | ------------------------ | ------------------------ |
A  | ------------------------ | ------------------------ |
E  | ------------------------ | ------------------------ |


lead guitar:

E  | ------------------------ | ------------------------ |
B  | ------------------------ | --2--------------------- |
G  | ------------------------ | --2--------------------- |
D  | --5\-------------------- | --2--------------------- |
A  | ------------------------ | --0--------------------- |
E  | ------------------------ | ------------------------ |

rythym guitar:

E  | ------------------------ | ------------------------ |
B  | ------------------------ | --2---3---5---3-2------- |
G  | ---------------------2-- | ----2---2---2--------2-- |
D  | ------------------------ | ------------------------ |
A  | ------------------------ | ------------------------ |
E  | ------------------------ | ------------------------ |

E  | ------------------------ |
B  | --2---3---5---3-2------- |
G  | ----2---2---2----------- |
D  | ------------------------ |
A  | ------------------------ |
E  | ------------------------ |

lead guitar:

E  | --3--------2----0--0-2-- | --0-------------0------- |
B  | ------------------------ | ------------3-------2--- |
G  | ------------------------ | ------------------------ |
D  | ------------------------ | ------------------------ |
A  | ------------------------ | ------------------------ |
E  | ------------------------ | ------------------------ |

E  | ------------------------ |
B  | ------------------------ |
G  | ------------------------ |
D  | --5\-------------------- |
A  | ------------------------ |
E  | ------------------------ |

{ verse }

guitar 1 as before

guitar 2:

E  | --0---0--0---0---0--0--- | --0---0--0---0---0--0--- |
B  | --2---2--3---2---2--3--- | --2---2--3---2---2--3--- |
G  | --2---2--2---2---2--2--- | --2---2--2---2---2--2--- |
D  | ------------------------ | ------------------------ |
A  | ------------------------ | ------------------------ |
E  | ------------------------ | ------------------------ |
    you          took the rest of the day

E  | --0---0--0---0---0--0--- | --0---0--0---0---0--0--- |
B  | --2---2--3---2---2--3--- | --2---2--3---2---2--3--- |
G  | --2---2--2---2---2--2--- | --2---2--2---2---2--2--- |
D  | ------------------------ | ------------------------ |
A  | ------------------------ | ------------------------ |
E  | ------------------------ | ------------------------ |
    you          took the rest of the day             and

E  | --2---2--3---2---2--3--- | --0---0--0---0---0--0--- |
B  | --3---3--3---3---3--3--- | --2---2--3---2---2--3--- |
G  | --2---2--2---2---2--2--- | --2---2--2---2---2--2--- |
D  | ------------------------ | ------------------------ |
A  | ------------------------ | ------------------------ |
E  | ------------------------ | ------------------------ |
    i                  don't know why                  no

E  | --2---2--3---2---2--3--- | --0---0--0---0---0--0--- |
B  | --3---3--3---3---3--3--- | --2---2--3---2---2--3--- |
G  | --2---2--2---2---2--2--- | --2---2--2---2---2--2--- |
D  | ------------------------ | ------------------------ |
A  | ------------------------ | ------------------------ |
E  | ------------------------ | ------------------------ |
    i                  don't know why

E  | --4---4--5---4---4--5--- | --2---2--3---2---2--3--- |
B  | --5---5--5---5---5--5--- | --3---3--3---3---3--3--- |
G  | --4---4--4---4---4--4--- | --2---2--2---2---2--2--- |
D  | ------------------------ | ------------------------ |
A  | ------------------------ | ------------------------ |
E  | ------------------------ | ------------------------ |
    now that's it's all over   now there's just some coldness in my

E  | --0---0--0---0---0--0--- | --0---0--0---0---0--0--- |
B  | --2---2--3---2---2--3--- | --2---2--3---2---2--3--- |
G  | --2---2--2---2---2--2--- | --2---2--2---2---2--2--- |
D  | ------------------------ | ------------------------ |
A  | ------------------------ | ------------------------ |
E  | ------------------------ | ------------------------ |
    way               it's in my way


{ repeat refrain }

{ back to first verse guitar }

guitar 1:

E  | ------------------------ | ------------------------ |
B  | ------------------------ | ------------------------ |
G  | ------------------------ | ---------------------9-- |
D  | ------------------------ | ------------------------ |
A  | ------------------------ | ------------------------ |
E  | ------------------------ | ------------------------ |


guitar 1:

E  | --10----9--------------- | ------------------------ |
B  | -----------------8------ | ------------------------ |
G  | --------------9--------- | ---------------------9-- |
D  | ------------------------ | ------------------------ |
A  | ------------------------ | ------------------------ |
E  | ------------------------ | ------------------------ |

guitar 2:

E  | ------------------------ | ------------------------ |
B  | ------------------------ | ----2---3---5----------- |
G  | ------------------------ | --2---2---2------------- |
D  | ------------------------ | ------------------------ |
A  | ------------------------ | ------------------------ |
E  | ------------------------ | ------------------------ |


guitar 1:

E  | --10----9--------------- | ------------------------ |
B  | ------------------8----- | ------------------------ |
G  | ---------------9-------- | ------------------------ |
D  | ------------------------ | ------------------------ |
A  | ------------------------ | ------------------------ |
E  | ------------------------ | ------------------------ |

guitar 2:

E  | ------------------------ | ------------------------ |
B  | ------------------------ | ----5---3---2----------- |
G  | ------------------------ | --2---2---2------------- |
D  | ------------------------ | ------------------------ |
A  | ------------------------ | ------------------------ |
E  | ------------------------ | ------------------------ |

repeats.


other lead guitar bits before last verse:

lead guitar:

E  | --3--------2----0--0-2-- | --0-------------0------- |
B  | ------------------------ | ------------3-------2--- |
G  | ------------------------ | ------------------------ |
D  | ------------------------ | ------------------------ |
A  | ------------------------ | ------------------------ |
E  | ------------------------ | ------------------------ |

E  | ------------------------ | ------------------------ |
B  | ------------------------ | -------------3---2------ |
G  | --0---4/(5)--------2-0-- | --2-------2------------- |
D  | ------------------------ | --------------------4--- |
A  | ------------------------ | ------------------------ |
E  | ------------------------ | ------------------------ |

E  | ------------------------ | ------------10--9------- |
B  | ------------------------ | --8----------------10--- |
G  | --0--------------------- | ------------------------ |
D  | ------------------------ | ------------------------ |
A  | ------------------------ | ------------------------ |
E  | ------------------------ | ------------------------ |

E  | ------------10--9------- | ------------10--9--10--- |
B  | --8----------------10--- | --8--------------------- |
G  | ------------------------ | ------------------------ |
D  | ------------------------ | ------------------------ |
A  | ------------------------ | ------------------------ |
E  | ------------------------ | ------------------------ |

E  | --12-------------------- | ------------------------ |
B  | ------------------------ | ------------------------ |
G  | ------------------------ | ------------------------ |
D  | ------------------------ | ------------------------ |
A  | ------------------------ | ------------------------ |
E  | ------------------------ | ------------------------ |


that's about it.  the end...well, just go spastic .. ;-)

it goes out on an A ..

.mrg.

this transcription copyright (c) 1995 matthew green.  this
maybe be reproduced electronically, but physical copies are
limited to one per person for personal use only.  oh, and
only if this copyright remains attached.

lyrics reproduced without permission.

Don't Look Back

(Kilbey)

Taken from Shadow Cabinet

[E]Sometime up here[Esus4], watching a [E]cloud [Esus4]
[E]Funny how they shape your [Esus4]thoughts
Right out [E]loud [Esus4]
Some days you [A]laugh
[Am]Some days you [E]cry [Esus4]
So [G]deep in a night
It [D]leaves you stranded high and [E]dry [Esus4]

[E]Keep to yourself,[Esus4] keep it in [E]case [Esus4]
[E]Keep it when you need it for a pretty [Esus4]smile
For your [E]face [Esus4]
Walk out in the [A]sun
[Am]Walk out in the [E]rain [Esus4]
[G]Keep on walking
And [D]don't look back here [E]again [Esus4]